Cuttings: Don Ted E. Bear Waltz - Guitar Arrangement (Sam & Max) Don Ted E. Bear Waltz - Guitar Arrangement (Sam & Max) | Cuttings
Things of interest.


 
October 16, 2015

Don Ted E. Bear Waltz - Guitar Arrangement (Sam & Max)


My transcription of 'Don Ted E. Bear Waltz', from Sam & Max.

I like the mafia-ish feel and sound of this piece, especially when the pensive part comes in.

Some points:

  1. The song’s structure: Melody x2, Interlude, then back to Melody.
  2. I’ve chosen to transcribe only the melody lines over the interlude.
  3. Add a pinch of trills for that distinctive mafioso flavour.
Title "Don Ted E. Bear Waltz"
Source Sam & Max
Tuning Standard E
Tempo 105.41
Transcribed 16.10.2015 / 01:37AM


MELODY

E |-----------------------|-------------|-------------|-------|
B |--------------8p-6-----|-------------|--------9----|--10---|
G |--------6--9--------9--|--7--10-9----|-/7--10------|-------|
D |-----7-----------------|-------------|-------------|-------|
A |-/8--------------------|-------------|-------------|-------|
E |-----------------------|-------------|-------------|-------|

-------------|-------------|-------------|-------------
-/8--10-/11~-|--10-8--11---|--13~---11~--|--13-11-10---
-------------|-------------|-------------|-------------
-------------|-------------|-------------|-------------
-------------|-------------|-------------|-------------
-------------|-------------|-------------|-------------

e---------------------------------------------
B--8--6--5--8p6------5------------------------
G-----------------------7-6--7-9--9p7h9h10~---
D---------------------------------------------
A---------------------------------------------
E---------------------------------------------

-------------------------------------------------------|
-------------------------------------------------------|
--7----------------------------9-12--10/11/10----------|
----7-------6/7-8-7-8-10-11-12-----------------11-12---|
------8-/10--------------------------------------------|
-------------------------------------------------------|


INTERLUDE

e-------------------------------------------------------------------------------
B-------------------------------------------------------------------------------
G-----------------------------------------6---7--7h9p7p6h7p6--------------------
D--10/8----7---8-7--7-----------------7-8--------------------7--5/6-7~----------
A--------------------8---------7-8-10-------------------------------------------
E---------------------10--------------------------------------------------------


|-------------------------------------------------------------------------------
|--/11---14-15----14-15-14-15--17--/18---17--15------19-17-19-------------------
|-----------------------------------------------------------------21-20-18------
|--------------------------------------------------------------------------21---
|-------------------------------------------------------------------------------
|-------------------------------------------------------------------------------

---------------------------------------------------------------------------|
---------------------------------------------------------------------------|
----------------------------14--15-14---------14-15-17-15------14-20-21----|
--17h19p17p15-17------15-17----------------17------------------------------|
---------------------------------------------------------------------------|
---------------------------------------------------------------------------|



 

 
© 1997 - 2018 / Info