Cuttings: Grandma - Guitar Arrangement (NieR Gestalt) Grandma - Guitar Arrangement (NieR Gestalt) | Cuttings
Things of interest.


 
January 17, 2015

Grandma - Guitar Arrangement (NieR Gestalt)


My transcription of 'Grandma', from NieR Gestalt.

The original piano piece sounds rather ethereal.

Title "Grandma"
Source Nier Gestalt
Tuning Standard E
Transcribed 17.01.2015 / 07:08PM


MAIN MELODY: (repeats without variation throughout the whole song)


e-----------------------------------|-----------------------8----8-----
B-----------------11----------------|---------------10---10---10-------
G--------------10----10-------------|----------8-------8---------------
D------8-10-11----------11-10-------|-----7-10---10--------------------
A----8------------------------13----|---6------------------------------
E--6-----------------------------13-|-8--------------------------------



(25)
e------------------13----13-18----18-|-13-18----18--------------------------
B---------11----11----11-------18----|-------18----18----18-----------------
G------10----10----------------------|----------------15----15----15--------
D----8-------------------------------|-------------------------15----15-----
A------------------------------------|----------------------------------13--
E--9---------------------------------|-------------------------------------




e--------------------11-------13-------|
B--------------11-------11-------11----|
G-----------11----11-------11-------11-|
D--------15----------------------------|
A-----13-------------------------------|
E--11----------------------------------|



-------------------------------6-----------6-------|
-------------7-----6-----6---6---6---6---6---6-----|
-------6---6---6-----6-----6-------6---6-------6---|
---8-7---7-------7-----7---------------------------|
-8-------------------------------------------------|
---------------------------------------------------|


e------------------------------------------------------------------
B---------11-----10-------10---------------------------------------
G---8---8----8------8---8----8-------------------------------------
D-----8--------8------8--------------------------------------------
A------------------------------------------------------------------
E------------------------------------------------------------------





 

 
© 1997 - 2018 / Info