Cuttings: Ih Ah! (Devin Townsend) Ih Ah! (Devin Townsend) | Cuttings
Things of interest.


 
January 16, 2015

Ih Ah! (Devin Townsend)


My transcription of 'Ih-Ah' from the studio album.

Great song, lovely melody.

</tr> </tr>
Title "Ih Ah!"
Source YouTube
Tuning Drop D Tempo 119.89
Transcribed 16.01.2015 / 09:33 PM
    


TUNING: Drop D

INTRO:

E ||---------------------------|----------------------------|
B ||----1--5h-1-----1--5h-1----|-----1--5h-1-----1--5h-1----|
G ||o2-----------2-------------|----------------------------|
D ||o--------------------------|--3-----------3-------------|
A ||---------------------------|----------------------------|
D ||---------------------------|----------------------------|


----------------------------|---------------------------|||
-----1--5h-1-----1--5h-1----|-----1--3h-1-----1--3h-1---|||
----------------------------|--0-----------0-----------o|||
--2-----------2-------------|--------------------------o|||
----------------------------|---------------------------|||
----------------------------|---------------------------|||


VERSE (and most of the song)


----------------------------------------------------------------------------
----------------------------------------------------------------------------
--5-------0--(0)-(0)--------------------------------------------------------
--2---3---5--(0)-(0)--------------------------------------------------------
--0---3---3---5---7---------------------------------------------------------
------3-------5---6---------------------------------------------------------



BRIDGE


<--- MUTED --->
x8

[A] [B]
----|------------------|-----------------|-----|-----|-----------------------
----|------------------|-------3---------|-----|-----|-------3---------------
----|--5-----5-----5---|-4-5---4-----4---|-----|-----|-4-5---4---4---4-------
--5-|--2-----2-----2---|-2-2---2-----2---|-----|-----|-2-2---2---2---2-------
--3-|--0-0-0-0-0-0-0-0-|-0-0-0-0-0-0-0-0-|-[A]-|-[B]-|-0-0-0-0-0-0-0-0-------
--3-|------------------|-----------------|-----|-----|-----------------------

x2
-----|-----------------|------------
-----|-----------------|------------
-----|-2-----2-----2---|------------
-----|-4-----4-----4---|------------
-[A]-|-0-0-0-0-0-0-0-0-|------------
-----|-----------------|------------



(back into solo after bridge, or can break up with it)

-----------------2L-------2L------------------------|--2----||
--------------3-------------------------------------|-------||
-----------2----------------------------------------|-------||
--------4-------------------------------------------|-------||
-----0----------------------------------------------|-------||
--0-------------------------------------------------|-------||




 

 
© 1997 - 2018 / Info