Cuttings: Just the Two of Us (6-Bar Guitar/Sax Copy) Just the Two of Us (6-Bar Guitar/Sax Copy) | Cuttings
Things of interest.


 
June 14, 2015

Just the Two of Us (6-Bar Guitar/Sax Copy)


My transcription of Mindi Abair's solo part of the cover.

Mindi Abair covered Just the Two of Us , and improvised a gorgeous saxophone solo.

I’ve transcribed the first 6-bars of her solo to study the articulations. (My guitar is panned right.)

I’ve tabbed below what I think are the correct articulations.

Title "Just the Two of Us"
Source YouTube (starts at 3m12s)
Play Type Improvisation
Played By Mindi Abair
Tempo 82.38bpm
Transcribed 14.06.2015
    
E |------------------------------|--------------------------------------------|
B |--12^13-12^13-12^13----13/15--|--16/15---13--------------------------------|
G |------------------------------|--------------14-12-------------------------|
D |------------------------------|---------------------13h14p13p12/10----10---|
A |------------------------------|------------------------------------12------|
E |------------------------------|--------------------------------------------|


<------------------------triplet-x5--------->
(change to D#)
|-----------------------------------------------------------|
|-----------------------------------------------------------|
|-----------------------------------------------------------|
|--------10-13/12-14-15-12-14-15-13-14-15-13-14-15-13-14-15-|
|--10/-12---------------------------------------------------|
|-----------------------------------------------------------|


|-----------------------------------|
|-----------------------------------|
|-----12----------------------------|
|-12-----12h14-10---10-10~--10/12---|
|-----------------------------------|
|-----------------------------------|



--------------------------------------------|
------------------13--15p13-----13--13s15---|
--------12--12/14-----------14--------------|
--12/14-------------------------------------|
--------------------------------------------|
--------------------------------------------|


------------------------------|--------15--|
--------13-15---16^15--13-15--|--13-15^----|
--12-14-----------------------|------------|
------------------------------|------------|
------------------------------|------------|
------------------------------|------------|


--20^~--20-19-17-------------------------------------|-----------------------|
-----------------20----------------------------------|-----------------------|
---------------------19--20-21-17------------17s19---|--19^21--19^20-17-19~--|
------------------------------------19~---19---------|-----------------------|
-----------------------------------------------------|-----------------------|
-----------------------------------------------------|-----------------------|


--------------------------------------------------------||
--------------------------------------------------------||
--17-20^19p17---------------------17--------------------||
--------------19--19--17----17/19-----17/19----17/19----||
--------------------------------------------------------||
--------------------------------------------------------||



 

 
© 1997 - 2018 / Info