Cuttings: Eye to Eye (Jonathan Young's Version) Eye to Eye (Jonathan Young’s Version) | Cuttings
Things of interest.


 
February 8, 2016

Eye to Eye (Jonathan Young's Version)


My transcription of Jonathan Young's cover of "Eye to Eye".

Song originally from A Goofy Movie.

My tab isn’t a verbatim reproduction; I’ve only highlighted the important notes.

Title "Eye to Eye"
Source YouTube
Play Type Cover
Played By Jonathan Young
Tuning Drop D
Transcribed 07.02.2016
    
[PART A]
x8
e------------------------------------------|
B------------------------------------------|
G------------------------------------------|
D---------0-0----0-0--------0-0--x-0-x-0---|
A--2----2-0-0----0-0-2----2-0-0--x-0-x-0-2-|
D--2----2------------2----2--------------2-|


VERSE - Follows [Part A], with rhythmic variations

BRIDGE



e-------|-----|--------|
B-------|-----|--------|
G-------|-----|--------|
D-----2-|-----|---2-2--|
A--0--0-|-[A]-|-0-0-4--|
D--0----|-----|-0------|




CHORUS

I used '.' to reflect the extended A5
while the B5 is just one beat
--------------------------------|
--------------------------------|
--------------------------------|
-6-2-4----6-4-2.4--6-2-4------0-|
-4-0-2-2--4-2-0.2--4-0-2-2--0-0-|
-------2-----------------2--0---|



VERSE 2: Almost like Part A. Mostly rhythmic variations, and
a hammer-on transition lick on the low strings - not transcribing.

BRIDGE -> CHORUS

CHORUS TO SOLO

For the first time ever~~~ We're seein it~~~
e--------------------------------------------
B--------------------------------------------
G--------------------------------------------
D---------------------------2----------------
A-0-------------------------0----------------
D-0------------------------------------------

Eye to eye~~ Eye to eye
------------------------------------------------
------------------------------------------------
------------2-----------------------------------
------------0-----------------------------------
----------------------------2-------------------
----------------------------2-------------------

SOLO - [Not transcribed]


SOLO TO BRIDGE KEY CHANGE

(replace bar 4 of chorus) If you're ever lonely Stop
e-------------------------|-----------------------------------
B-------------------------|-----------------------------------
G-------------------------|-----------------------------------
D-2~---4~-----------------|---------------------7~------------
A-0~---2~-----------------|---------------------5~------2-----
D-------------------------|-----------------------------2-----


Play [Part A] again



BRIDGE KEY CHANGE CHORUS
KEY CHANGE

e------------|----------------------------|
B------------|----------------------------|
G------------|----------------------------|
D---2-4--6~--|-8-4-6----6-8-4.6--8-4-6----|
A-0-0-2--4~--|-6-2-4-4--4-6-2.4--6-2-4-4--|
D-0----------|-------4-----------------4--|
|
| Alternative chord:
A|-1---
D|-1---


ENDING -


--------------------------------------------------------
--------------------------------------------------------
--------------------------------------------------------
------------2-x-x-x--2-2--------2-2-------x-2-x-2-------
-2-----4--4-2-x-x-x--2-2--4---4-2-2-x-x-x-x-2-x-2-4-4---
-2-----4--4---------------4---4-------------------4-4---




 

 
© 1997 - 2018 / Info