Cuttings: Rather Be (Alexa Goddard's Version) Rather Be (Alexa Goddard’s Version) | Cuttings
Things of interest.


 
March 5, 2016

Rather Be (Alexa Goddard's Version)


Transcription of Alexa Goddard's acoustic cover of Clean Bandit's "Rather Be".

Some points:

  1. I’ve only highlighted the notes/chords. Listen to the cover for the comping/strumming patterns.
  2. In the chorus, the comp accents don’t fall on the 4/4 beats, and there’s no real transition between the D#m7 and EM7 chords.
Title "Rather Be"
Source YouTube
Play Type Cover
Played By Alexa Goddard
Tuning Standard E
Transcribed 05.03.2016 / 11:59PM

INTRO/CHORUS


G#m7
e-------------------------------------------7--|-----------------------
B--11h12--h14-----11-------7h9--p7----------7--|-----------------------
G--11-------------11-------8---------8------8--|-----------------------
D--11h13----------11-------9---------9------9--|---C#m7-----D#m7-------
A--11-------------9--------7---------9---------|-----------------------
E------------------------------------7---------|-----------------------


BRIDGE

e----------------------------|-----------------------------|
B---------4--/5----4----/5---|---------4--/5----4----------|
G---------6--------4----/6---|---------6--------4----------|
D--EM7----5--------4----/7---|--EM7----5--------4----4-----|
A---------6-------------(7)--|---------6-------------4-----|
E------------------4---------|------------------4----2-----|


CHORUS
x3
e----------------------------|--------------------------------|---------
B-----------------------11---|-------------------------11-----|---------
G-----------------------9----|-------------------------11-----|---------
D--G#m7-----D#m7--EM7---11---|---G#m7-----D#m7--EM7----11-----|---C#m7--
A-----------------------10---|-------------------------9------|---------
E----------------------------|--------------------------------|---------


ENDING CHORD (after last C#m7)

e---0~--------|
B---0~--------|
G---1~--------|
D---2~--------|
A-------------|
E---2---------|



 

 
© 1997 - 2018 / Info