Cuttings: Tifa Funk - Interlude Solo (Tifa's Theme by Tetrimino) Tifa Funk - Interlude Solo (Tifa’s Theme by Tetrimino) | Cuttings
Things of interest.


 
March 12, 2016

Tifa Funk - Interlude Solo (Tifa's Theme by Tetrimino)


My transcription of the piano interlude from "Tifa Funk".

The solo starts from 2:01.

The original piece is actually rather melancholic ; this one has a jazzy/airy feel. I like it. (And I especially adore the transition between the B (b4) to A (b5) chords.)

</table> </div>
    

e-12h17p12----12---12----|----------------------|-----------------------
B----------15---------15-|----------------------|-----------------------
G------------------------|--14--12-10-12-----10-|--12h14p12-----10------
D------------------------|----------------12----|-----------12-----12---
A------------------------|----------------------|-----------------------
E------------------------|----------------------|-----------------------

e----------------------------------/13-13~-----------|------------------
B-------------------------13-15-13--13-13~-----------|------------------
G-12--10-12-14---12-13-14------------------13/14--12-|------------------
D----------------------------------------------------|------------------
A----------------------------------------------------|------------------
E----------------------------------------------------|------------------


e----------------------------------------------------------------------
B-------15-13----------------------------------------------------------
G-12-14-------14-------------------------------------------------------
D----------------12/15--17------------10----11h12----------------------
A-------------------------------10-12----12-------11h12-8----8h10---8--
E---------------------------------------------------------10-----------


e---------------------------------------------------------------------
B---------------------8-------------6-------6----6/8----10~-----------
G-------------------7---9-10----5-7---7-5-7-5--6--------10~-----------
D----------------10----------------------------7----------------------
A-------5-8-7---------------------------------------------------------
E---5-8---------------------------------------------------------------


e-------------------------------------|--10---------------------------
B--10-10-10-10-8----------------5-----|-----8h10--8----8--------------
G--10-10-10-10--------7-6---------7---|-------------10---10------8----
D-------------------8-------5-7-------|----------------------12--8----
A-------------------------------------|-------------------------------
E-------------------------------------|-------------------------------



e--------10--10---10------------------|----10---8---------------------
B--------10--10-------10--------------|----10---8----10----12-10~-----
G-----8------------------10----10--12-|-10-----------10----12-10~-----
D-5-8-7---------------------12--------|-----------10----12------------
A-------------------------------------|-------------------------------
E-------------------------------------|-------------------------------


e--------------------------------13----13-15-16-13-16-17-20-17-20-22--
B--------------------13----13-15----15--------------------------------
G--------10-10-12-14----14--------------------------------------------
D--10-12--------------------------------------------------------------
A---------------------------------------------------------------------
E---------------------------------------------------------------------


Title "Tifa Funk" </tr>
Source YouTube
Play Type Cover
Played By Tetrimino
Tempo 136.75
Tuning Standard E
Transcribed 12.03.2016 / 2:25 AM


 

 
© 1997 - 2018 / Info